ISO-10303-21;
HEADER;
/* Generated by software containing ST-Developer
 * from STEP Tools, Inc. (www.steptools.com) 
 */

FILE_DESCRIPTION(
/* description */ (''),
/* implementation_level */ '2;1');

FILE_NAME(
/* name */ 
'C:/Users/Bruce Dominguez/Documents/0_BRUCE_SF/0_Morgan_Press/Morgan P
ress Purging Mold Five Inches.step',
/* time_stamp */ '2021-03-25T09:47:27-07:00',
/* author */ (''),
/* organization */ (''),
/* preprocessor_version */ 'ST-DEVELOPER v18.1',
/* originating_system */ 'Autodesk Translation Framework v9.10.0.1330',

/* authorisation */ '');

FILE_SCHEMA (('AUTOMOTIVE_DESIGN { 1 0 10303 214 3 1 1 }'));
ENDSEC;

DATA;
#10=MECHANICAL_DESIGN_GEOMETRIC_PRESENTATION_REPRESENTATION('',(#15,#16,
#17),#443);
#11=SHAPE_REPRESENTATION_RELATIONSHIP('SRR','None',#453,#12);
#12=ADVANCED_BREP_SHAPE_REPRESENTATION('',(#18,#19,#20),#442);
#13=CONICAL_SURFACE('',#281,0.156203889641521,0.05235987755983);
#14=SPHERICAL_SURFACE('',#276,0.5);
#15=STYLED_ITEM('',(#462),#18);
#16=STYLED_ITEM('',(#462),#19);
#17=STYLED_ITEM('',(#462),#20);
#18=MANIFOLD_SOLID_BREP('Body1',#239);
#19=MANIFOLD_SOLID_BREP('Body2',#240);
#20=MANIFOLD_SOLID_BREP('Body4',#241);
#21=FACE_BOUND('',#57,.T.);
#22=FACE_BOUND('',#63,.T.);
#23=FACE_BOUND('',#67,.T.);
#24=FACE_BOUND('',#69,.T.);
#25=FACE_BOUND('',#74,.T.);
#26=FACE_BOUND('',#77,.T.);
#27=FACE_BOUND('',#79,.T.);
#28=PLANE('',#258);
#29=PLANE('',#263);
#30=PLANE('',#266);
#31=PLANE('',#267);
#32=PLANE('',#274);
#33=PLANE('',#275);
#34=PLANE('',#286);
#35=PLANE('',#290);
#36=PLANE('',#291);
#37=FACE_OUTER_BOUND('',#55,.T.);
#38=FACE_OUTER_BOUND('',#56,.T.);
#39=FACE_OUTER_BOUND('',#58,.T.);
#40=FACE_OUTER_BOUND('',#59,.T.);
#41=FACE_OUTER_BOUND('',#60,.T.);
#42=FACE_OUTER_BOUND('',#61,.T.);
#43=FACE_OUTER_BOUND('',#62,.T.);
#44=FACE_OUTER_BOUND('',#64,.T.);
#45=FACE_OUTER_BOUND('',#65,.T.);
#46=FACE_OUTER_BOUND('',#66,.T.);
#47=FACE_OUTER_BOUND('',#68,.T.);
#48=FACE_OUTER_BOUND('',#70,.T.);
#49=FACE_OUTER_BOUND('',#71,.T.);
#50=FACE_OUTER_BOUND('',#72,.T.);
#51=FACE_OUTER_BOUND('',#73,.T.);
#52=FACE_OUTER_BOUND('',#75,.T.);
#53=FACE_OUTER_BOUND('',#76,.T.);
#54=FACE_OUTER_BOUND('',#78,.T.);
#55=EDGE_LOOP('',(#160,#161,#162,#163));
#56=EDGE_LOOP('',(#164));
#57=EDGE_LOOP('',(#165));
#58=EDGE_LOOP('',(#166,#167,#168,#169));
#59=EDGE_LOOP('',(#170));
#60=EDGE_LOOP('',(#171,#172,#173,#174));
#61=EDGE_LOOP('',(#175));
#62=EDGE_LOOP('',(#176));
#63=EDGE_LOOP('',(#177));
#64=EDGE_LOOP('',(#178,#179,#180,#181));
#65=EDGE_LOOP('',(#182,#183,#184,#185));
#66=EDGE_LOOP('',(#186));
#67=EDGE_LOOP('',(#187));
#68=EDGE_LOOP('',(#188));
#69=EDGE_LOOP('',(#189));
#70=EDGE_LOOP('',(#190,#191,#192,#193,#194));
#71=EDGE_LOOP('',(#195,#196,#197,#198,#199));
#72=EDGE_LOOP('',(#200,#201,#202,#203));
#73=EDGE_LOOP('',(#204));
#74=EDGE_LOOP('',(#205));
#75=EDGE_LOOP('',(#206,#207,#208,#209));
#76=EDGE_LOOP('',(#210));
#77=EDGE_LOOP('',(#211));
#78=EDGE_LOOP('',(#212));
#79=EDGE_LOOP('',(#213));
#80=LINE('',#381,#88);
#81=LINE('',#390,#89);
#82=LINE('',#395,#90);
#83=LINE('',#403,#91);
#84=LINE('',#409,#92);
#85=LINE('',#423,#93);
#86=LINE('',#429,#94);
#87=LINE('',#436,#95);
#88=VECTOR('',#298,1.245);
#89=VECTOR('',#309,0.28125);
#90=VECTOR('',#316,1.625);
#91=VECTOR('',#327,1.25);
#92=VECTOR('',#334,1.5);
#93=VECTOR('',#353,0.156203889641521);
#94=VECTOR('',#360,1.245);
#95=VECTOR('',#369,1.625);
#96=CIRCLE('',#256,1.245);
#97=CIRCLE('',#257,1.245);
#98=CIRCLE('',#259,1.625);
#99=CIRCLE('',#261,0.28125);
#100=CIRCLE('',#262,0.28125);
#101=CIRCLE('',#265,1.625);
#102=CIRCLE('',#269,1.25);
#103=CIRCLE('',#270,1.25);
#104=CIRCLE('',#272,1.5);
#105=CIRCLE('',#273,1.5);
#106=CIRCLE('',#277,0.135311151162872);
#107=CIRCLE('',#278,0.135311151162872);
#108=CIRCLE('',#279,0.5);
#109=CIRCLE('',#280,0.324961536185439);
#110=CIRCLE('',#282,0.182407779283041);
#111=CIRCLE('',#284,1.245);
#112=CIRCLE('',#285,1.245);
#113=CIRCLE('',#288,1.625);
#114=CIRCLE('',#289,1.625);
#115=VERTEX_POINT('',#378);
#116=VERTEX_POINT('',#380);
#117=VERTEX_POINT('',#384);
#118=VERTEX_POINT('',#387);
#119=VERTEX_POINT('',#389);
#120=VERTEX_POINT('',#394);
#121=VERTEX_POINT('',#400);
#122=VERTEX_POINT('',#402);
#123=VERTEX_POINT('',#406);
#124=VERTEX_POINT('',#408);
#125=VERTEX_POINT('',#414);
#126=VERTEX_POINT('',#415);
#127=VERTEX_POINT('',#418);
#128=VERTEX_POINT('',#422);
#129=VERTEX_POINT('',#426);
#130=VERTEX_POINT('',#428);
#131=VERTEX_POINT('',#433);
#132=VERTEX_POINT('',#435);
#133=EDGE_CURVE('',#115,#115,#96,.T.);
#134=EDGE_CURVE('',#115,#116,#80,.T.);
#135=EDGE_CURVE('',#116,#116,#97,.T.);
#136=EDGE_CURVE('',#117,#117,#98,.T.);
#137=EDGE_CURVE('',#118,#118,#99,.T.);
#138=EDGE_CURVE('',#118,#119,#81,.T.);
#139=EDGE_CURVE('',#119,#119,#100,.T.);
#140=EDGE_CURVE('',#117,#120,#82,.T.);
#141=EDGE_CURVE('',#120,#120,#101,.T.);
#142=EDGE_CURVE('',#121,#121,#102,.T.);
#143=EDGE_CURVE('',#121,#122,#83,.T.);
#144=EDGE_CURVE('',#122,#122,#103,.T.);
#145=EDGE_CURVE('',#123,#123,#104,.T.);
#146=EDGE_CURVE('',#123,#124,#84,.T.);
#147=EDGE_CURVE('',#124,#124,#105,.T.);
#148=EDGE_CURVE('',#125,#126,#106,.T.);
#149=EDGE_CURVE('',#126,#125,#107,.T.);
#150=EDGE_CURVE('',#126,#127,#108,.T.);
#151=EDGE_CURVE('',#127,#127,#109,.T.);
#152=EDGE_CURVE('',#125,#128,#85,.T.);
#153=EDGE_CURVE('',#128,#128,#110,.T.);
#154=EDGE_CURVE('',#129,#129,#111,.T.);
#155=EDGE_CURVE('',#129,#130,#86,.T.);
#156=EDGE_CURVE('',#130,#130,#112,.T.);
#157=EDGE_CURVE('',#131,#131,#113,.T.);
#158=EDGE_CURVE('',#131,#132,#87,.T.);
#159=EDGE_CURVE('',#132,#132,#114,.T.);
#160=ORIENTED_EDGE('',*,*,#133,.F.);
#161=ORIENTED_EDGE('',*,*,#134,.T.);
#162=ORIENTED_EDGE('',*,*,#135,.T.);
#163=ORIENTED_EDGE('',*,*,#134,.F.);
#164=ORIENTED_EDGE('',*,*,#136,.F.);
#165=ORIENTED_EDGE('',*,*,#135,.F.);
#166=ORIENTED_EDGE('',*,*,#137,.F.);
#167=ORIENTED_EDGE('',*,*,#138,.T.);
#168=ORIENTED_EDGE('',*,*,#139,.T.);
#169=ORIENTED_EDGE('',*,*,#138,.F.);
#170=ORIENTED_EDGE('',*,*,#139,.F.);
#171=ORIENTED_EDGE('',*,*,#136,.T.);
#172=ORIENTED_EDGE('',*,*,#140,.T.);
#173=ORIENTED_EDGE('',*,*,#141,.T.);
#174=ORIENTED_EDGE('',*,*,#140,.F.);
#175=ORIENTED_EDGE('',*,*,#133,.T.);
#176=ORIENTED_EDGE('',*,*,#141,.F.);
#177=ORIENTED_EDGE('',*,*,#137,.T.);
#178=ORIENTED_EDGE('',*,*,#142,.F.);
#179=ORIENTED_EDGE('',*,*,#143,.T.);
#180=ORIENTED_EDGE('',*,*,#144,.T.);
#181=ORIENTED_EDGE('',*,*,#143,.F.);
#182=ORIENTED_EDGE('',*,*,#145,.F.);
#183=ORIENTED_EDGE('',*,*,#146,.T.);
#184=ORIENTED_EDGE('',*,*,#147,.T.);
#185=ORIENTED_EDGE('',*,*,#146,.F.);
#186=ORIENTED_EDGE('',*,*,#145,.T.);
#187=ORIENTED_EDGE('',*,*,#142,.T.);
#188=ORIENTED_EDGE('',*,*,#147,.F.);
#189=ORIENTED_EDGE('',*,*,#144,.F.);
#190=ORIENTED_EDGE('',*,*,#148,.F.);
#191=ORIENTED_EDGE('',*,*,#149,.F.);
#192=ORIENTED_EDGE('',*,*,#150,.T.);
#193=ORIENTED_EDGE('',*,*,#151,.F.);
#194=ORIENTED_EDGE('',*,*,#150,.F.);
#195=ORIENTED_EDGE('',*,*,#148,.T.);
#196=ORIENTED_EDGE('',*,*,#149,.T.);
#197=ORIENTED_EDGE('',*,*,#152,.T.);
#198=ORIENTED_EDGE('',*,*,#153,.F.);
#199=ORIENTED_EDGE('',*,*,#152,.F.);
#200=ORIENTED_EDGE('',*,*,#154,.F.);
#201=ORIENTED_EDGE('',*,*,#155,.T.);
#202=ORIENTED_EDGE('',*,*,#156,.F.);
#203=ORIENTED_EDGE('',*,*,#155,.F.);
#204=ORIENTED_EDGE('',*,*,#154,.T.);
#205=ORIENTED_EDGE('',*,*,#153,.T.);
#206=ORIENTED_EDGE('',*,*,#157,.F.);
#207=ORIENTED_EDGE('',*,*,#158,.T.);
#208=ORIENTED_EDGE('',*,*,#159,.T.);
#209=ORIENTED_EDGE('',*,*,#158,.F.);
#210=ORIENTED_EDGE('',*,*,#157,.T.);
#211=ORIENTED_EDGE('',*,*,#151,.T.);
#212=ORIENTED_EDGE('',*,*,#159,.F.);
#213=ORIENTED_EDGE('',*,*,#156,.T.);
#214=CYLINDRICAL_SURFACE('',#255,1.245);
#215=CYLINDRICAL_SURFACE('',#260,0.28125);
#216=CYLINDRICAL_SURFACE('',#264,1.625);
#217=CYLINDRICAL_SURFACE('',#268,1.25);
#218=CYLINDRICAL_SURFACE('',#271,1.5);
#219=CYLINDRICAL_SURFACE('',#283,1.245);
#220=CYLINDRICAL_SURFACE('',#287,1.625);
#221=ADVANCED_FACE('',(#37),#214,.T.);
#222=ADVANCED_FACE('',(#38,#21),#28,.T.);
#223=ADVANCED_FACE('',(#39),#215,.F.);
#224=ADVANCED_FACE('',(#40),#29,.T.);
#225=ADVANCED_FACE('',(#41),#216,.T.);
#226=ADVANCED_FACE('',(#42),#30,.T.);
#227=ADVANCED_FACE('',(#43,#22),#31,.F.);
#228=ADVANCED_FACE('',(#44),#217,.F.);
#229=ADVANCED_FACE('',(#45),#218,.T.);
#230=ADVANCED_FACE('',(#46,#23),#32,.T.);
#231=ADVANCED_FACE('',(#47,#24),#33,.F.);
#232=ADVANCED_FACE('',(#48),#14,.F.);
#233=ADVANCED_FACE('',(#49),#13,.F.);
#234=ADVANCED_FACE('',(#50),#219,.T.);
#235=ADVANCED_FACE('',(#51,#25),#34,.T.);
#236=ADVANCED_FACE('',(#52),#220,.T.);
#237=ADVANCED_FACE('',(#53,#26),#35,.T.);
#238=ADVANCED_FACE('',(#54,#27),#36,.F.);
#239=CLOSED_SHELL('',(#221,#222,#223,#224,#225,#226,#227));
#240=CLOSED_SHELL('',(#228,#229,#230,#231));
#241=CLOSED_SHELL('',(#232,#233,#234,#235,#236,#237,#238));
#242=DERIVED_UNIT_ELEMENT(#244,1.);
#243=DERIVED_UNIT_ELEMENT(#447,-3.);
#244=(
MASS_UNIT()
NAMED_UNIT(*)
SI_UNIT(.KILO.,.GRAM.)
);
#245=DERIVED_UNIT((#242,#243));
#246=MEASURE_REPRESENTATION_ITEM('density measure',
POSITIVE_RATIO_MEASURE(7850.),#245);
#247=PROPERTY_DEFINITION_REPRESENTATION(#252,#249);
#248=PROPERTY_DEFINITION_REPRESENTATION(#253,#250);
#249=REPRESENTATION('material name',(#251),#442);
#250=REPRESENTATION('density',(#246),#442);
#251=DESCRIPTIVE_REPRESENTATION_ITEM('Steel','Steel');
#252=PROPERTY_DEFINITION('material property','material name',#455);
#253=PROPERTY_DEFINITION('material property','density of part',#455);
#254=AXIS2_PLACEMENT_3D('placement',#376,#292,#293);
#255=AXIS2_PLACEMENT_3D('',#377,#294,#295);
#256=AXIS2_PLACEMENT_3D('',#379,#296,#297);
#257=AXIS2_PLACEMENT_3D('',#382,#299,#300);
#258=AXIS2_PLACEMENT_3D('',#383,#301,#302);
#259=AXIS2_PLACEMENT_3D('',#385,#303,#304);
#260=AXIS2_PLACEMENT_3D('',#386,#305,#306);
#261=AXIS2_PLACEMENT_3D('',#388,#307,#308);
#262=AXIS2_PLACEMENT_3D('',#391,#310,#311);
#263=AXIS2_PLACEMENT_3D('',#392,#312,#313);
#264=AXIS2_PLACEMENT_3D('',#393,#314,#315);
#265=AXIS2_PLACEMENT_3D('',#396,#317,#318);
#266=AXIS2_PLACEMENT_3D('',#397,#319,#320);
#267=AXIS2_PLACEMENT_3D('',#398,#321,#322);
#268=AXIS2_PLACEMENT_3D('',#399,#323,#324);
#269=AXIS2_PLACEMENT_3D('',#401,#325,#326);
#270=AXIS2_PLACEMENT_3D('',#404,#328,#329);
#271=AXIS2_PLACEMENT_3D('',#405,#330,#331);
#272=AXIS2_PLACEMENT_3D('',#407,#332,#333);
#273=AXIS2_PLACEMENT_3D('',#410,#335,#336);
#274=AXIS2_PLACEMENT_3D('',#411,#337,#338);
#275=AXIS2_PLACEMENT_3D('',#412,#339,#340);
#276=AXIS2_PLACEMENT_3D('',#413,#341,#342);
#277=AXIS2_PLACEMENT_3D('',#416,#343,#344);
#278=AXIS2_PLACEMENT_3D('',#417,#345,#346);
#279=AXIS2_PLACEMENT_3D('',#419,#347,#348);
#280=AXIS2_PLACEMENT_3D('',#420,#349,#350);
#281=AXIS2_PLACEMENT_3D('',#421,#351,#352);
#282=AXIS2_PLACEMENT_3D('',#424,#354,#355);
#283=AXIS2_PLACEMENT_3D('',#425,#356,#357);
#284=AXIS2_PLACEMENT_3D('',#427,#358,#359);
#285=AXIS2_PLACEMENT_3D('',#430,#361,#362);
#286=AXIS2_PLACEMENT_3D('',#431,#363,#364);
#287=AXIS2_PLACEMENT_3D('',#432,#365,#366);
#288=AXIS2_PLACEMENT_3D('',#434,#367,#368);
#289=AXIS2_PLACEMENT_3D('',#437,#370,#371);
#290=AXIS2_PLACEMENT_3D('',#438,#372,#373);
#291=AXIS2_PLACEMENT_3D('',#439,#374,#375);
#292=DIRECTION('axis',(0.,0.,1.));
#293=DIRECTION('refdir',(1.,0.,0.));
#294=DIRECTION('center_axis',(0.,0.,-1.));
#295=DIRECTION('ref_axis',(-1.,0.,0.));
#296=DIRECTION('center_axis',(0.,0.,1.));
#297=DIRECTION('ref_axis',(-1.,0.,0.));
#298=DIRECTION('',(0.,0.,-1.));
#299=DIRECTION('center_axis',(0.,0.,1.));
#300=DIRECTION('ref_axis',(-1.,0.,0.));
#301=DIRECTION('center_axis',(0.,0.,1.));
#302=DIRECTION('ref_axis',(-1.,0.,0.));
#303=DIRECTION('center_axis',(0.,0.,-1.));
#304=DIRECTION('ref_axis',(1.,0.,0.));
#305=DIRECTION('center_axis',(0.,0.,1.));
#306=DIRECTION('ref_axis',(1.,0.,0.));
#307=DIRECTION('center_axis',(0.,0.,1.));
#308=DIRECTION('ref_axis',(1.,0.,0.));
#309=DIRECTION('',(0.,0.,1.));
#310=DIRECTION('center_axis',(0.,0.,1.));
#311=DIRECTION('ref_axis',(1.,0.,0.));
#312=DIRECTION('center_axis',(0.,0.,-1.));
#313=DIRECTION('ref_axis',(1.,0.,0.));
#314=DIRECTION('center_axis',(0.,0.,1.));
#315=DIRECTION('ref_axis',(1.,0.,0.));
#316=DIRECTION('',(0.,0.,-1.));
#317=DIRECTION('center_axis',(0.,0.,1.));
#318=DIRECTION('ref_axis',(1.,0.,0.));
#319=DIRECTION('center_axis',(0.,0.,1.));
#320=DIRECTION('ref_axis',(1.,0.,0.));
#321=DIRECTION('center_axis',(0.,0.,1.));
#322=DIRECTION('ref_axis',(1.,0.,0.));
#323=DIRECTION('center_axis',(0.,0.,1.));
#324=DIRECTION('ref_axis',(-1.,0.,0.));
#325=DIRECTION('center_axis',(0.,0.,-1.));
#326=DIRECTION('ref_axis',(-1.,0.,0.));
#327=DIRECTION('',(0.,0.,-1.));
#328=DIRECTION('center_axis',(0.,0.,-1.));
#329=DIRECTION('ref_axis',(-1.,0.,0.));
#330=DIRECTION('center_axis',(0.,0.,1.));
#331=DIRECTION('ref_axis',(-1.,0.,0.));
#332=DIRECTION('center_axis',(0.,0.,1.));
#333=DIRECTION('ref_axis',(-1.,0.,0.));
#334=DIRECTION('',(0.,0.,-1.));
#335=DIRECTION('center_axis',(0.,0.,1.));
#336=DIRECTION('ref_axis',(-1.,0.,0.));
#337=DIRECTION('center_axis',(0.,0.,1.));
#338=DIRECTION('ref_axis',(-1.,0.,0.));
#339=DIRECTION('center_axis',(0.,0.,1.));
#340=DIRECTION('ref_axis',(-1.,0.,0.));
#341=DIRECTION('center_axis',(6.12323399573676E-17,0.,1.));
#342=DIRECTION('ref_axis',(1.,0.,0.));
#343=DIRECTION('center_axis',(0.,0.,1.));
#344=DIRECTION('ref_axis',(0.,1.,0.));
#345=DIRECTION('center_axis',(0.,0.,1.));
#346=DIRECTION('ref_axis',(0.,1.,0.));
#347=DIRECTION('center_axis',(-1.22464679914735E-16,1.,0.));
#348=DIRECTION('ref_axis',(-1.,-1.22464679914735E-16,0.));
#349=DIRECTION('center_axis',(0.,0.,-1.));
#350=DIRECTION('ref_axis',(0.,1.,0.));
#351=DIRECTION('center_axis',(0.,0.,-1.));
#352=DIRECTION('ref_axis',(0.,1.,0.));
#353=DIRECTION('',(-6.40930612932372E-18,-0.0523359562429439,-0.998629534754574));
#354=DIRECTION('center_axis',(0.,0.,1.));
#355=DIRECTION('ref_axis',(0.,1.,0.));
#356=DIRECTION('center_axis',(0.,0.,-1.));
#357=DIRECTION('ref_axis',(1.,0.,0.));
#358=DIRECTION('center_axis',(0.,0.,-1.));
#359=DIRECTION('ref_axis',(1.,0.,0.));
#360=DIRECTION('',(0.,0.,1.));
#361=DIRECTION('center_axis',(0.,0.,1.));
#362=DIRECTION('ref_axis',(1.,0.,0.));
#363=DIRECTION('center_axis',(0.,0.,-1.));
#364=DIRECTION('ref_axis',(1.,0.,0.));
#365=DIRECTION('center_axis',(0.,0.,1.));
#366=DIRECTION('ref_axis',(1.,0.,0.));
#367=DIRECTION('center_axis',(0.,0.,1.));
#368=DIRECTION('ref_axis',(1.,0.,0.));
#369=DIRECTION('',(0.,0.,-1.));
#370=DIRECTION('center_axis',(0.,0.,1.));
#371=DIRECTION('ref_axis',(1.,0.,0.));
#372=DIRECTION('center_axis',(0.,0.,1.));
#373=DIRECTION('ref_axis',(1.,0.,0.));
#374=DIRECTION('center_axis',(0.,0.,1.));
#375=DIRECTION('ref_axis',(1.,0.,0.));
#376=CARTESIAN_POINT('',(0.,0.,0.));
#377=CARTESIAN_POINT('Origin',(0.,0.,1.));
#378=CARTESIAN_POINT('',(1.245,1.52468526493845E-16,1.));
#379=CARTESIAN_POINT('Origin',(0.,0.,1.));
#380=CARTESIAN_POINT('',(1.245,1.52468526493845E-16,0.75));
#381=CARTESIAN_POINT('',(1.245,-1.52468526493845E-16,1.));
#382=CARTESIAN_POINT('Origin',(0.,0.,0.75));
#383=CARTESIAN_POINT('Origin',(0.,0.,0.75));
#384=CARTESIAN_POINT('',(-1.625,-1.99005104861445E-16,0.75));
#385=CARTESIAN_POINT('Origin',(0.,0.,0.75));
#386=CARTESIAN_POINT('Origin',(0.,0.,0.));
#387=CARTESIAN_POINT('',(-0.28125,3.44431912260193E-17,0.));
#388=CARTESIAN_POINT('Origin',(0.,0.,0.));
#389=CARTESIAN_POINT('',(-0.28125,3.44431912260193E-17,0.25));
#390=CARTESIAN_POINT('',(-0.28125,-3.44431912260193E-17,0.));
#391=CARTESIAN_POINT('Origin',(0.,0.,0.25));
#392=CARTESIAN_POINT('Origin',(0.,0.,0.25));
#393=CARTESIAN_POINT('Origin',(0.,0.,0.));
#394=CARTESIAN_POINT('',(-1.625,-1.99005104861445E-16,0.));
#395=CARTESIAN_POINT('',(-1.625,-1.99005104861445E-16,0.));
#396=CARTESIAN_POINT('Origin',(0.,0.,0.));
#397=CARTESIAN_POINT('Origin',(0.,0.,1.));
#398=CARTESIAN_POINT('Origin',(0.,0.,0.));
#399=CARTESIAN_POINT('Origin',(0.,0.,0.75));
#400=CARTESIAN_POINT('',(1.25,1.53080849893419E-16,5.75));
#401=CARTESIAN_POINT('Origin',(0.,0.,5.75));
#402=CARTESIAN_POINT('',(1.25,1.53080849893419E-16,0.75));
#403=CARTESIAN_POINT('',(1.25,1.53080849893419E-16,0.75));
#404=CARTESIAN_POINT('Origin',(0.,0.,0.75));
#405=CARTESIAN_POINT('Origin',(0.,0.,0.75));
#406=CARTESIAN_POINT('',(1.5,1.83697019872103E-16,5.75));
#407=CARTESIAN_POINT('Origin',(0.,0.,5.75));
#408=CARTESIAN_POINT('',(1.5,1.83697019872103E-16,0.75));
#409=CARTESIAN_POINT('',(1.5,1.83697019872103E-16,0.75));
#410=CARTESIAN_POINT('Origin',(0.,0.,0.75));
#411=CARTESIAN_POINT('Origin',(0.,0.,5.75));
#412=CARTESIAN_POINT('Origin',(0.,0.,0.75));
#413=CARTESIAN_POINT('Origin',(0.,-6.55643518479423E-16,6.88));
#414=CARTESIAN_POINT('',(1.65708368160555E-17,-0.135311151162872,6.39865719869205));
#415=CARTESIAN_POINT('',(-0.135311151162872,-6.72214355295479E-16,6.39865719869205));
#416=CARTESIAN_POINT('Origin',(0.,0.,6.39865719869205));
#417=CARTESIAN_POINT('Origin',(0.,0.,6.39865719869205));
#418=CARTESIAN_POINT('',(-0.324961536185439,-6.95439828992974E-16,6.5));
#419=CARTESIAN_POINT('Origin',(0.,-6.55643518479423E-16,6.88));
#420=CARTESIAN_POINT('Origin',(0.,-6.55643518479423E-16,6.5));
#421=CARTESIAN_POINT('Origin',(0.,0.,6.));
#422=CARTESIAN_POINT('',(-2.23385103038553E-17,-0.182407779283041,5.5));
#423=CARTESIAN_POINT('',(-1.91294593463855E-17,-0.156203889641521,6.));
#424=CARTESIAN_POINT('Origin',(0.,0.,5.5));
#425=CARTESIAN_POINT('Origin',(0.,0.,5.75));
#426=CARTESIAN_POINT('',(-1.245,1.52468526493845E-16,5.5));
#427=CARTESIAN_POINT('Origin',(0.,0.,5.5));
#428=CARTESIAN_POINT('',(-1.245,1.52468526493845E-16,5.75));
#429=CARTESIAN_POINT('',(-1.245,1.52468526493845E-16,5.75));
#430=CARTESIAN_POINT('Origin',(0.,0.,5.75));
#431=CARTESIAN_POINT('Origin',(0.,0.,5.5));
#432=CARTESIAN_POINT('Origin',(0.,0.,5.75));
#433=CARTESIAN_POINT('',(-1.625,-1.99005104861445E-16,6.5));
#434=CARTESIAN_POINT('Origin',(0.,0.,6.5));
#435=CARTESIAN_POINT('',(-1.625,-1.99005104861445E-16,5.75));
#436=CARTESIAN_POINT('',(-1.625,-1.99005104861445E-16,5.75));
#437=CARTESIAN_POINT('Origin',(0.,0.,5.75));
#438=CARTESIAN_POINT('Origin',(0.,0.,6.5));
#439=CARTESIAN_POINT('Origin',(0.,0.,5.75));
#440=UNCERTAINTY_MEASURE_WITH_UNIT(LENGTH_MEASURE(0.000393700787401575),
#445,'DISTANCE_ACCURACY_VALUE',
'Maximum model space distance between geometric entities at asserted c
onnectivities');
#441=UNCERTAINTY_MEASURE_WITH_UNIT(LENGTH_MEASURE(0.000393700787401575),
#445,'DISTANCE_ACCURACY_VALUE',
'Maximum model space distance between geometric entities at asserted c
onnectivities');
#442=(
GEOMETRIC_REPRESENTATION_CONTEXT(3)
GLOBAL_UNCERTAINTY_ASSIGNED_CONTEXT((#440))
GLOBAL_UNIT_ASSIGNED_CONTEXT((#445,#449,#450))
REPRESENTATION_CONTEXT('','3D')
);
#443=(
GEOMETRIC_REPRESENTATION_CONTEXT(3)
GLOBAL_UNCERTAINTY_ASSIGNED_CONTEXT((#441))
GLOBAL_UNIT_ASSIGNED_CONTEXT((#445,#449,#450))
REPRESENTATION_CONTEXT('','3D')
);
#444=DIMENSIONAL_EXPONENTS(1.,0.,0.,0.,0.,0.,0.);
#445=(
CONVERSION_BASED_UNIT('inch',#448)
LENGTH_UNIT()
NAMED_UNIT(#444)
);
#446=(
LENGTH_UNIT()
NAMED_UNIT(*)
SI_UNIT(.MILLI.,.METRE.)
);
#447=(
LENGTH_UNIT()
NAMED_UNIT(*)
SI_UNIT($,.METRE.)
);
#448=LENGTH_MEASURE_WITH_UNIT(LENGTH_MEASURE(25.4),#446);
#449=(
NAMED_UNIT(*)
PLANE_ANGLE_UNIT()
SI_UNIT($,.RADIAN.)
);
#450=(
NAMED_UNIT(*)
SI_UNIT($,.STERADIAN.)
SOLID_ANGLE_UNIT()
);
#451=SHAPE_DEFINITION_REPRESENTATION(#452,#453);
#452=PRODUCT_DEFINITION_SHAPE('',$,#455);
#453=SHAPE_REPRESENTATION('',(#254),#442);
#454=PRODUCT_DEFINITION_CONTEXT('part definition',#459,'design');
#455=PRODUCT_DEFINITION('Purging Mold','Purging Mold v3',#456,#454);
#456=PRODUCT_DEFINITION_FORMATION('',$,#461);
#457=PRODUCT_RELATED_PRODUCT_CATEGORY('Purging Mold v3',
'Purging Mold v3',(#461));
#458=APPLICATION_PROTOCOL_DEFINITION('international standard',
'automotive_design',2009,#459);
#459=APPLICATION_CONTEXT(
'Core Data for Automotive Mechanical Design Process');
#460=PRODUCT_CONTEXT('part definition',#459,'mechanical');
#461=PRODUCT('Purging Mold','Purging Mold v3',$,(#460));
#462=PRESENTATION_STYLE_ASSIGNMENT((#463));
#463=SURFACE_STYLE_USAGE(.BOTH.,#464);
#464=SURFACE_SIDE_STYLE('',(#465));
#465=SURFACE_STYLE_FILL_AREA(#466);
#466=FILL_AREA_STYLE('Steel - Satin',(#467));
#467=FILL_AREA_STYLE_COLOUR('Steel - Satin',#468);
#468=COLOUR_RGB('Steel - Satin',0.627450980392157,0.627450980392157,0.627450980392157);
ENDSEC;
END-ISO-10303-21;
